ISO-10303-21;
HEADER;
FILE_DESCRIPTION(
  ('This file contains a STEP AP42 implementation'
    ,'as created by ZW3D STEP Interface translator.'
    ,'')
  ,'2;1'
  );
FILE_NAME(
  '½ÇÂë.stp'
  ,'24 825.221457',
  (''),
  ('ZWCAD Software Co.'),
  'Version 1.0',
  'ZW3D to STEP translator',
  ''
  );
FILE_SCHEMA(('AUTOMOTIVE_DESIGN { 1 0 10303 214 1 1 1 1 }'));
ENDSEC;

DATA;

/**File Base Unit**/
#1 = (LENGTH_UNIT()NAMED_UNIT(*)SI_UNIT(.MILLI.,.METRE.));
#2 = (NAMED_UNIT(*)PLANE_ANGLE_UNIT()SI_UNIT($,.RADIAN.));
#3 = (NAMED_UNIT(*)SI_UNIT($,.STERADIAN.)SOLID_ANGLE_UNIT());
#4 = UNCERTAINTY_MEASURE_WITH_UNIT(LENGTH_MEASURE(0.01),#1,'DISTANCE_ACCURACY_VALUE','Maximum Tolerance applied to model');
#5 = (GEOMETRIC_REPRESENTATION_CONTEXT(3)GLOBAL_UNCERTAINTY_ASSIGNED_CONTEXT((#4))GLOBAL_UNIT_ASSIGNED_CONTEXT((#1,#2,#3))REPRESENTATION_CONTEXT('STEP 203','TOP_LEVEL_ASSEMBLY_PART'));

/**product_definition_shape**/
#6=APPLICATION_CONTEXT('mechanical parts and assemblies' );
#7=DESIGN_CONTEXT('NONE',#6,'design');
#8=MECHANICAL_CONTEXT('NONE',#6,'mechanical');
#9=PRODUCT('0','Part','',(#8));
#10=PRODUCT_DEFINITION_FORMATION_WITH_SPECIFIED_SOURCE('ANY','',#9,.NOT_KNOWN.);
#11=PRODUCT_DEFINITION('UNKNOWN','',#10,#7);
#12=PRODUCT_DEFINITION_SHAPE('NONE','NONE',#11);
#13=PRODUCT_RELATED_PRODUCT_CATEGORY('detail','',(#9));
/**geometry information**/
#14=CARTESIAN_POINT('',(0.,0.,0.));
#15=DIRECTION('',(0.,0.,1.));
#16=DIRECTION('',(1.,0.,0.));
#17=AXIS2_PLACEMENT_3D('',#14,#15,#16);
#18=SHAPE_REPRESENTATION('none',(#17),#5);
#19=SHAPE_DEFINITION_REPRESENTATION(#12,#18);
#20=CARTESIAN_POINT('',(1013.0081050448,834.75940633405,1030.));
#21=DIRECTION('',(0.,0.,1.));
#22=DIRECTION('',(0.,1.,0.));
#23=AXIS2_PLACEMENT_3D('',#20,#22,#21);
#24=PLANE('',#23);
#25=CARTESIAN_POINT('',(1021.0081050448,834.75940633405,1046.));
#26=VERTEX_POINT('',#25);
#27=CARTESIAN_POINT('',(1051.0081050448,834.75940633405,1046.));
#28=VERTEX_POINT('',#27);
#29=CARTESIAN_POINT('',(1021.0081050448,834.75940633405,1046.));
#30=DIRECTION('',(1.,0.,0.));
#31=VECTOR('',#30,30.);
#32=LINE('',#29,#31);
#33=EDGE_CURVE('',#26,#28,#32,.T.);
#34=ORIENTED_EDGE('E2885',*,*,#33,.T.);
#35=CARTESIAN_POINT('',(1051.0081050448,834.75940633405,1030.));
#36=VERTEX_POINT('',#35);
#37=CARTESIAN_POINT('',(1051.0081050448,834.75940633405,1046.));
#38=DIRECTION('',(0.,0.,-1.));
#39=VECTOR('',#38,16.);
#40=LINE('',#37,#39);
#41=EDGE_CURVE('',#28,#36,#40,.T.);
#42=ORIENTED_EDGE('E2886',*,*,#41,.T.);
#43=CARTESIAN_POINT('',(1021.0081050448,834.75940633405,1030.));
#44=VERTEX_POINT('',#43);
#45=CARTESIAN_POINT('',(1051.0081050448,834.75940633405,1030.));
#46=DIRECTION('',(-1.,0.,0.));
#47=VECTOR('',#46,30.);
#48=LINE('',#45,#47);
#49=EDGE_CURVE('',#36,#44,#48,.T.);
#50=ORIENTED_EDGE('E2887',*,*,#49,.T.);
#51=CARTESIAN_POINT('',(1021.0081050448,834.75940633405,1038.));
#52=DIRECTION('',(0.,1.4210854715202E-14,-1.));
#53=DIRECTION('',(1.7154019093177E-14,1.,1.7154019093177E-14));
#54=AXIS2_PLACEMENT_3D('',#51,#53,#52);
#55=CIRCLE('',#54,7.9999999999998);
#56=EDGE_CURVE('',#44,#26,#55,.T.);
#57=ORIENTED_EDGE('E2888',*,*,#56,.T.);
#58=EDGE_LOOP('',(#34,#42,#50,#57));
#59=FACE_OUTER_BOUND('',#58,.T.);
#60=CARTESIAN_POINT('',(1019.5081050448,834.75940633405,1038.));
#61=VERTEX_POINT('',#60);
#62=CARTESIAN_POINT('',(1023.0081050448,834.75940633404,1034.5));
#63=VERTEX_POINT('',#62);
#64=CARTESIAN_POINT('',(1023.0081050448,834.75940633405,1038.));
#65=DIRECTION('',(-1.,3.2481953634746E-14,0.));
#66=DIRECTION('',(-3.9209186498691E-14,-1.,-3.9209186498691E-14));
#67=AXIS2_PLACEMENT_3D('',#64,#66,#65);
#68=CIRCLE('',#67,3.5);
#69=EDGE_CURVE('',#61,#63,#68,.T.);
#70=ORIENTED_EDGE('E2889',*,*,#69,.T.);
#71=CARTESIAN_POINT('',(1023.0081050448,834.75940633405,1038.));
#72=DIRECTION('',(0.,3.2481953634745E-14,-1.));
#73=DIRECTION('',(-5.6733685875303E-14,-1.,-2.1881075654245E-14));
#74=AXIS2_PLACEMENT_3D('',#71,#73,#72);
#75=CIRCLE('',#74,3.4999999999999);
#76=EDGE_CURVE('',#63,#61,#75,.T.);
#77=ORIENTED_EDGE('E2890',*,*,#76,.T.);
#78=EDGE_LOOP('',(#70,#77));
#79=FACE_BOUND('',#78,.T.);
#80=CARTESIAN_POINT('',(1037.5081050448,834.75940633405,1038.));
#81=VERTEX_POINT('',#80);
#82=CARTESIAN_POINT('',(1041.0081050448,834.75940633405,1034.5));
#83=VERTEX_POINT('',#82);
#84=CARTESIAN_POINT('',(1041.0081050448,834.75940633405,1038.));
#85=DIRECTION('',(-1.,3.248195363475E-14,0.));
#86=DIRECTION('',(-3.920918649869E-14,-1.,-3.920918649869E-14));
#87=AXIS2_PLACEMENT_3D('',#84,#86,#85);
#88=CIRCLE('',#87,3.5);
#89=EDGE_CURVE('',#81,#83,#88,.T.);
#90=ORIENTED_EDGE('E2891',*,*,#89,.T.);
#91=CARTESIAN_POINT('',(1041.0081050448,834.75940633405,1038.));
#92=DIRECTION('',(6.4963907269499E-14,6.4963907269499E-14,-1.));
#93=DIRECTION('',(-3.9307380764772E-14,-1.,-3.9307380764775E-14));
#94=AXIS2_PLACEMENT_3D('',#91,#93,#92);
#95=CIRCLE('',#94,3.5000000000001);
#96=EDGE_CURVE('',#83,#81,#95,.T.);
#97=ORIENTED_EDGE('E2892',*,*,#96,.T.);
#98=EDGE_LOOP('',(#90,#97));
#99=FACE_BOUND('',#98,.T.);
#100=ADVANCED_FACE('F1040',(#59,#79,#99),#24,.T.);
#101=CARTESIAN_POINT('',(1051.0081050448,844.75940633405,1038.));
#102=DIRECTION('',(-6.4963907269495E-14,0.,-1.));
#103=DIRECTION('',(1.,0.,0.));
#104=AXIS2_PLACEMENT_3D('',#101,#103,#102);
#105=CYLINDRICAL_SURFACE('',#104,3.5);
#106=CARTESIAN_POINT('',(1051.0081050448,844.75940633405,1041.5));
#107=VERTEX_POINT('',#106);
#108=CARTESIAN_POINT('',(1051.0081050448,844.75940633405,1034.5));
#109=VERTEX_POINT('',#108);
#110=CARTESIAN_POINT('',(1051.0081050448,844.75940633405,1038.));
#111=DIRECTION('',(-6.4963907269491E-14,0.,1.));
#112=DIRECTION('',(-1.,-3.9209186498692E-14,-3.9209186498692E-14));
#113=AXIS2_PLACEMENT_3D('',#110,#112,#111);
#114=CIRCLE('',#113,3.5000000000001);
#115=EDGE_CURVE('',#107,#109,#114,.T.);
#116=ORIENTED_EDGE('E2893',*,*,#115,.T.);
#117=CARTESIAN_POINT('',(1053.0081050448,844.75940633405,1034.5));
#118=VERTEX_POINT('',#117);
#119=CARTESIAN_POINT('',(1051.0081050448,844.75940633405,1034.5));
#120=DIRECTION('',(1.,0.,0.));
#121=VECTOR('',#120,2.);
#122=LINE('',#119,#121);
#123=EDGE_CURVE('',#109,#118,#122,.T.);
#124=ORIENTED_EDGE('E2894',*,*,#123,.T.);
#125=CARTESIAN_POINT('',(1053.0081050448,844.75940633405,1041.5));
#126=VERTEX_POINT('',#125);
#127=CARTESIAN_POINT('',(1053.0081050448,844.75940633405,1038.));
#128=DIRECTION('',(0.,0.,-1.));
#129=DIRECTION('',(1.,-1.9604593249346E-14,1.9604593249346E-14));
#130=AXIS2_PLACEMENT_3D('',#127,#129,#128);
#131=CIRCLE('',#130,3.5);
#132=EDGE_CURVE('',#118,#126,#131,.T.);
#133=ORIENTED_EDGE('E2895',*,*,#132,.T.);
#134=CARTESIAN_POINT('',(1053.0081050448,844.75940633405,1038.));
#135=DIRECTION('',(0.,-6.4963907269491E-14,1.));
#136=DIRECTION('',(1.,1.9604593249346E-14,-1.9604593249346E-14));
#137=AXIS2_PLACEMENT_3D('',#134,#136,#135);
#138=CIRCLE('',#137,3.5000000000002);
#139=EDGE_CURVE('',#126,#118,#138,.T.);
#140=ORIENTED_EDGE('E2896',*,*,#139,.T.);
#141=ORIENTED_EDGE('E2896',*,*,#123,.F.);
#142=CARTESIAN_POINT('',(1051.0081050448,844.75940633405,1038.));
#143=DIRECTION('',(-6.4963907269491E-14,-6.4963907269491E-14,-1.));
#144=DIRECTION('',(-1.,3.9209186498692E-14,3.9209186498692E-14));
#145=AXIS2_PLACEMENT_3D('',#142,#144,#143);
#146=CIRCLE('',#145,3.5000000000001);
#147=EDGE_CURVE('',#109,#107,#146,.T.);
#148=ORIENTED_EDGE('E2897',*,*,#147,.T.);
#149=EDGE_LOOP('',(#116,#124,#133,#140,#141,#148));
#150=FACE_OUTER_BOUND('',#149,.T.);
#151=ADVANCED_FACE('F1041',(#150),#105,.F.);
#152=CARTESIAN_POINT('',(1051.0081050448,862.75940633405,1038.));
#153=DIRECTION('',(-6.4963907269486E-14,3.2481953634743E-14,-1.));
#154=DIRECTION('',(1.,0.,0.));
#155=AXIS2_PLACEMENT_3D('',#152,#154,#153);
#156=CYLINDRICAL_SURFACE('',#155,3.5000000000004);
#157=CARTESIAN_POINT('',(1051.0081050448,862.75940633405,1041.5));
#158=VERTEX_POINT('',#157);
#159=CARTESIAN_POINT('',(1051.0081050448,862.75940633405,1034.5));
#160=VERTEX_POINT('',#159);
#161=CARTESIAN_POINT('',(1051.0081050448,862.75940633405,1038.));
#162=DIRECTION('',(-6.4963907269491E-14,3.2481953634745E-14,1.));
#163=DIRECTION('',(-1.,-3.9209186498693E-14,-3.9209186498693E-14));
#164=AXIS2_PLACEMENT_3D('',#161,#163,#162);
#165=CIRCLE('',#164,3.5000000000002);
#166=EDGE_CURVE('',#158,#160,#165,.T.);
#167=ORIENTED_EDGE('E2898',*,*,#166,.T.);
#168=CARTESIAN_POINT('',(1053.0081050448,862.75940633405,1034.5));
#169=VERTEX_POINT('',#168);
#170=CARTESIAN_POINT('',(1051.0081050448,862.75940633405,1034.5));
#171=DIRECTION('',(1.,0.,0.));
#172=VECTOR('',#171,2.);
#173=LINE('',#170,#172);
#174=EDGE_CURVE('',#160,#169,#173,.T.);
#175=ORIENTED_EDGE('E2899',*,*,#174,.T.);
#176=CARTESIAN_POINT('',(1053.0081050448,862.75940633405,1041.5));
#177=VERTEX_POINT('',#176);
#178=CARTESIAN_POINT('',(1053.0081050448,862.75940633405,1038.));
#179=DIRECTION('',(0.,3.248195363475E-14,-1.));
#180=DIRECTION('',(1.,-1.9604593249346E-14,1.9604593249346E-14));
#181=AXIS2_PLACEMENT_3D('',#178,#180,#179);
#182=CIRCLE('',#181,3.5000000000001);
#183=EDGE_CURVE('',#169,#177,#182,.T.);
#184=ORIENTED_EDGE('E2900',*,*,#183,.T.);
#185=CARTESIAN_POINT('',(1053.0081050448,862.75940633405,1038.));
#186=DIRECTION('',(0.,-3.2481953634745E-14,1.));
#187=DIRECTION('',(1.,1.9604593249346E-14,-1.9604593249346E-14));
#188=AXIS2_PLACEMENT_3D('',#185,#187,#186);
#189=CIRCLE('',#188,3.5000000000001);
#190=EDGE_CURVE('',#177,#169,#189,.T.);
#191=ORIENTED_EDGE('E2901',*,*,#190,.T.);
#192=ORIENTED_EDGE('E2901',*,*,#174,.F.);
#193=CARTESIAN_POINT('',(1051.0081050448,862.75940633405,1038.));
#194=DIRECTION('',(-6.4963907269495E-14,-3.2481953634747E-14,-1.));
#195=DIRECTION('',(-1.,3.9209186498691E-14,3.9209186498691E-14));
#196=AXIS2_PLACEMENT_3D('',#193,#195,#194);
#197=CIRCLE('',#196,3.5);
#198=EDGE_CURVE('',#160,#158,#197,.T.);
#199=ORIENTED_EDGE('E2902',*,*,#198,.T.);
#200=EDGE_LOOP('',(#167,#175,#184,#191,#192,#199));
#201=FACE_OUTER_BOUND('',#200,.T.);
#202=ADVANCED_FACE('F1042',(#201),#156,.F.);
#203=CARTESIAN_POINT('',(1051.0081050448,872.75940633405,1030.));
#204=DIRECTION('',(0.,0.,1.));
#205=DIRECTION('',(-1.,0.,0.));
#206=AXIS2_PLACEMENT_3D('',#203,#205,#204);
#207=PLANE('',#206);
#208=ORIENTED_EDGE('',*,*,#41,.F.);
#209=CARTESIAN_POINT('',(1051.0081050448,864.75940633405,1046.));
#210=VERTEX_POINT('',#209);
#211=CARTESIAN_POINT('',(1051.0081050448,834.75940633405,1046.));
#212=DIRECTION('',(0.,1.,0.));
#213=VECTOR('',#212,30.);
#214=LINE('',#211,#213);
#215=EDGE_CURVE('',#28,#210,#214,.T.);
#216=ORIENTED_EDGE('E2903',*,*,#215,.T.);
#217=CARTESIAN_POINT('',(1051.0081050448,864.75940633405,1030.));
#218=VERTEX_POINT('',#217);
#219=CARTESIAN_POINT('',(1051.0081050448,864.75940633405,1038.));
#220=DIRECTION('',(-2.8421709430405E-14,-2.8421709430405E-14,1.));
#221=DIRECTION('',(-1.,-1.7154019093177E-14,-1.7154019093177E-14));
#222=AXIS2_PLACEMENT_3D('',#219,#221,#220);
#223=CIRCLE('',#222,7.9999999999999);
#224=EDGE_CURVE('',#210,#218,#223,.T.);
#225=ORIENTED_EDGE('E2904',*,*,#224,.T.);
#226=CARTESIAN_POINT('',(1051.0081050448,864.75940633405,1030.));
#227=DIRECTION('',(0.,-1.,0.));
#228=VECTOR('',#227,30.);
#229=LINE('',#226,#228);
#230=EDGE_CURVE('',#218,#36,#229,.T.);
#231=ORIENTED_EDGE('E2905',*,*,#230,.T.);
#232=EDGE_LOOP('',(#208,#216,#225,#231));
#233=FACE_OUTER_BOUND('',#232,.T.);
#234=ORIENTED_EDGE('',*,*,#147,.F.);
#235=ORIENTED_EDGE('',*,*,#115,.F.);
#236=EDGE_LOOP('',(#234,#235));
#237=FACE_BOUND('',#236,.T.);
#238=ORIENTED_EDGE('',*,*,#198,.F.);
#239=ORIENTED_EDGE('',*,*,#166,.F.);
#240=EDGE_LOOP('',(#238,#239));
#241=FACE_BOUND('',#240,.T.);
#242=ADVANCED_FACE('F1043',(#233,#237,#241),#207,.T.);
#243=CARTESIAN_POINT('',(1023.0081050448,832.75940633405,1038.));
#244=DIRECTION('',(3.248195363475E-14,3.248195363475E-14,-1.));
#245=DIRECTION('',(5.6843418860792E-14,1.,0.));
#246=AXIS2_PLACEMENT_3D('',#243,#245,#244);
#247=CYLINDRICAL_SURFACE('',#246,3.4999999999999);
#248=CARTESIAN_POINT('',(1023.0081050448,832.75940633405,1041.5));
#249=VERTEX_POINT('',#248);
#250=CARTESIAN_POINT('',(1023.0081050448,832.75940633405,1034.5));
#251=VERTEX_POINT('',#250);
#252=CARTESIAN_POINT('',(1023.0081050448,832.75940633405,1038.));
#253=DIRECTION('',(-3.2481953634745E-14,0.,1.));
#254=DIRECTION('',(-1.9604593249346E-14,-1.,1.9604593249346E-14));
#255=AXIS2_PLACEMENT_3D('',#252,#254,#253);
#256=CIRCLE('',#255,3.5000000000001);
#257=EDGE_CURVE('',#249,#251,#256,.T.);
#258=ORIENTED_EDGE('E2906',*,*,#257,.T.);
#259=CARTESIAN_POINT('',(1023.0081050448,832.75940633405,1034.5));
#260=DIRECTION('',(0.,1.,0.));
#261=VECTOR('',#260,1.99999999999);
#262=LINE('',#259,#261);
#263=EDGE_CURVE('',#251,#63,#262,.T.);
#264=ORIENTED_EDGE('E2907',*,*,#263,.T.);
#265=ORIENTED_EDGE('E2907',*,*,#69,.F.);
#266=ORIENTED_EDGE('E2907',*,*,#76,.F.);
#267=ORIENTED_EDGE('E2907',*,*,#263,.F.);
#268=CARTESIAN_POINT('',(1023.0081050448,832.75940633405,1038.));
#269=DIRECTION('',(3.2481953634745E-14,0.,-1.));
#270=DIRECTION('',(1.9604593249346E-14,-1.,-1.9604593249346E-14));
#271=AXIS2_PLACEMENT_3D('',#268,#270,#269);
#272=CIRCLE('',#271,3.5000000000001);
#273=EDGE_CURVE('',#251,#249,#272,.T.);
#274=ORIENTED_EDGE('E2908',*,*,#273,.T.);
#275=EDGE_LOOP('',(#258,#264,#265,#266,#267,#274));
#276=FACE_OUTER_BOUND('',#275,.T.);
#277=ADVANCED_FACE('F1044',(#276),#247,.F.);
#278=CARTESIAN_POINT('',(1021.0081203007,834.75940633405,1038.0000213655));
#279=DIRECTION('',(-1.9070233551769E-06,-2.8421616160982E-14,-0.99999999999818));
#280=DIRECTION('',(0.,-1.,0.));
#281=AXIS2_PLACEMENT_3D('',#278,#280,#279);
#282=CYLINDRICAL_SURFACE('',#281,8.0000262530948);
#283=CARTESIAN_POINT('',(1021.0081050448,832.75940633405,1030.));
#284=VERTEX_POINT('',#283);
#285=CARTESIAN_POINT('',(1021.0081050448,834.75940633405,1030.));
#286=DIRECTION('',(0.,-1.,0.));
#287=VECTOR('',#286,2.);
#288=LINE('',#285,#287);
#289=EDGE_CURVE('',#44,#284,#288,.T.);
#290=ORIENTED_EDGE('E2909',*,*,#289,.T.);
#291=CARTESIAN_POINT('',(1021.0081050448,832.75940633405,1046.));
#292=VERTEX_POINT('',#291);
#293=CARTESIAN_POINT('',(1021.0081050448,832.75940633405,1038.));
#294=DIRECTION('',(0.,0.,-1.));
#295=DIRECTION('',(8.5770095465884E-15,1.,8.5770095465884E-15));
#296=AXIS2_PLACEMENT_3D('',#293,#295,#294);
#297=CIRCLE('',#296,7.9999999999998);
#298=EDGE_CURVE('',#284,#292,#297,.T.);
#299=ORIENTED_EDGE('E2910',*,*,#298,.T.);
#300=CARTESIAN_POINT('',(1021.0081050448,832.75940633405,1046.));
#301=DIRECTION('',(0.,1.,0.));
#302=VECTOR('',#301,2.);
#303=LINE('',#300,#302);
#304=EDGE_CURVE('',#292,#26,#303,.T.);
#305=ORIENTED_EDGE('E2911',*,*,#304,.T.);
#306=ORIENTED_EDGE('E2911',*,*,#56,.F.);
#307=EDGE_LOOP('',(#290,#299,#305,#306));
#308=FACE_OUTER_BOUND('',#307,.T.);
#309=ADVANCED_FACE('F1045',(#308),#282,.T.);
#310=CARTESIAN_POINT('',(1041.0081050448,832.75940633405,1038.));
#311=DIRECTION('',(0.,-3.2481953634747E-14,-1.));
#312=DIRECTION('',(0.,1.,0.));
#313=AXIS2_PLACEMENT_3D('',#310,#312,#311);
#314=CYLINDRICAL_SURFACE('',#313,3.4999999999999);
#315=CARTESIAN_POINT('',(1041.0081050448,832.75940633405,1041.5));
#316=VERTEX_POINT('',#315);
#317=CARTESIAN_POINT('',(1041.0081050448,832.75940633405,1034.5));
#318=VERTEX_POINT('',#317);
#319=CARTESIAN_POINT('',(1041.0081050448,832.75940633405,1038.));
#320=DIRECTION('',(6.4963907269495E-14,0.,1.));
#321=DIRECTION('',(-1.9604593249346E-14,-1.,1.9604593249346E-14));
#322=AXIS2_PLACEMENT_3D('',#319,#321,#320);
#323=CIRCLE('',#322,3.5);
#324=EDGE_CURVE('',#316,#318,#323,.T.);
#325=ORIENTED_EDGE('E2912',*,*,#324,.T.);
#326=CARTESIAN_POINT('',(1041.0081050448,832.75940633405,1034.5));
#327=DIRECTION('',(0.,1.,0.));
#328=VECTOR('',#327,2.);
#329=LINE('',#326,#328);
#330=EDGE_CURVE('',#318,#83,#329,.T.);
#331=ORIENTED_EDGE('E2913',*,*,#330,.T.);
#332=ORIENTED_EDGE('E2913',*,*,#89,.F.);
#333=ORIENTED_EDGE('E2913',*,*,#96,.F.);
#334=ORIENTED_EDGE('E2913',*,*,#330,.F.);
#335=CARTESIAN_POINT('',(1041.0081050448,832.75940633405,1038.));
#336=DIRECTION('',(6.4963907269491E-14,0.,-1.));
#337=DIRECTION('',(1.9604593249346E-14,-1.,-1.9604593249346E-14));
#338=AXIS2_PLACEMENT_3D('',#335,#337,#336);
#339=CIRCLE('',#338,3.5000000000001);
#340=EDGE_CURVE('',#318,#316,#339,.T.);
#341=ORIENTED_EDGE('E2914',*,*,#340,.T.);
#342=EDGE_LOOP('',(#325,#331,#332,#333,#334,#341));
#343=FACE_OUTER_BOUND('',#342,.T.);
#344=ADVANCED_FACE('F1046',(#343),#314,.F.);
#345=CARTESIAN_POINT('',(803.00810504482,832.75940633405,1037.5));
#346=DIRECTION('',(0.,0.,1.));
#347=DIRECTION('',(0.,-1.,0.));
#348=AXIS2_PLACEMENT_3D('',#345,#347,#346);
#349=PLANE('',#348);
#350=CARTESIAN_POINT('',(1053.0081050448,832.75940633405,1030.));
#351=VERTEX_POINT('',#350);
#352=CARTESIAN_POINT('',(1021.0081050448,832.75940633405,1030.));
#353=DIRECTION('',(1.,0.,0.));
#354=VECTOR('',#353,32.);
#355=LINE('',#352,#354);
#356=EDGE_CURVE('',#284,#351,#355,.T.);
#357=ORIENTED_EDGE('E2915',*,*,#356,.T.);
#358=CARTESIAN_POINT('',(1053.0081050448,832.75940633405,1046.));
#359=VERTEX_POINT('',#358);
#360=CARTESIAN_POINT('',(1053.0081050448,832.75940633405,1030.));
#361=DIRECTION('',(0.,0.,1.));
#362=VECTOR('',#361,16.);
#363=LINE('',#360,#362);
#364=EDGE_CURVE('',#351,#359,#363,.T.);
#365=ORIENTED_EDGE('E2916',*,*,#364,.T.);
#366=CARTESIAN_POINT('',(1053.0081050448,832.75940633405,1046.));
#367=DIRECTION('',(-1.,0.,0.));
#368=VECTOR('',#367,32.);
#369=LINE('',#366,#368);
#370=EDGE_CURVE('',#359,#292,#369,.T.);
#371=ORIENTED_EDGE('E2917',*,*,#370,.T.);
#372=ORIENTED_EDGE('E2917',*,*,#298,.F.);
#373=EDGE_LOOP('',(#357,#365,#371,#372));
#374=FACE_OUTER_BOUND('',#373,.T.);
#375=ORIENTED_EDGE('',*,*,#340,.F.);
#376=ORIENTED_EDGE('',*,*,#324,.F.);
#377=EDGE_LOOP('',(#375,#376));
#378=FACE_BOUND('',#377,.T.);
#379=ORIENTED_EDGE('',*,*,#273,.F.);
#380=ORIENTED_EDGE('',*,*,#257,.F.);
#381=EDGE_LOOP('',(#379,#380));
#382=FACE_BOUND('',#381,.T.);
#383=ADVANCED_FACE('F1047',(#374,#378,#382),#349,.T.);
#384=CARTESIAN_POINT('',(1053.0081050448,832.75940633405,1046.));
#385=DIRECTION('',(0.,1.,0.));
#386=DIRECTION('',(0.,-0.,1.));
#387=AXIS2_PLACEMENT_3D('',#384,#386,#385);
#388=PLANE('',#387);
#389=ORIENTED_EDGE('',*,*,#370,.F.);
#390=CARTESIAN_POINT('',(1053.0081050448,864.75940633405,1046.));
#391=VERTEX_POINT('',#390);
#392=CARTESIAN_POINT('',(1053.0081050448,832.75940633405,1046.));
#393=DIRECTION('',(0.,1.,0.));
#394=VECTOR('',#393,32.);
#395=LINE('',#392,#394);
#396=EDGE_CURVE('',#359,#391,#395,.T.);
#397=ORIENTED_EDGE('E2918',*,*,#396,.T.);
#398=CARTESIAN_POINT('',(1053.0081050448,864.75940633405,1046.));
#399=DIRECTION('',(-1.,0.,0.));
#400=VECTOR('',#399,2.);
#401=LINE('',#398,#400);
#402=EDGE_CURVE('',#391,#210,#401,.T.);
#403=ORIENTED_EDGE('E2919',*,*,#402,.T.);
#404=ORIENTED_EDGE('E2919',*,*,#215,.F.);
#405=ORIENTED_EDGE('E2919',*,*,#33,.F.);
#406=ORIENTED_EDGE('E2919',*,*,#304,.F.);
#407=EDGE_LOOP('',(#389,#397,#403,#404,#405,#406));
#408=FACE_OUTER_BOUND('',#407,.T.);
#409=ADVANCED_FACE('F1048',(#408),#388,.T.);
#410=CARTESIAN_POINT('',(1053.0081050448,864.7594126478,1037.9999911577));
#411=DIRECTION('',(5.6843496083412E-14,-7.8920206825062E-07,-0.99999999999969));
#412=DIRECTION('',(-1.,5.6843418860808E-14,0.));
#413=AXIS2_PLACEMENT_3D('',#410,#412,#411);
#414=CYLINDRICAL_SURFACE('',#413,7.9999891349735);
#415=CARTESIAN_POINT('',(1053.0081050448,864.75940633405,1030.));
#416=VERTEX_POINT('',#415);
#417=CARTESIAN_POINT('',(1053.0081050448,864.75940633405,1030.));
#418=DIRECTION('',(-1.,0.,0.));
#419=VECTOR('',#418,2.);
#420=LINE('',#417,#419);
#421=EDGE_CURVE('',#416,#218,#420,.T.);
#422=ORIENTED_EDGE('E2920',*,*,#421,.T.);
#423=ORIENTED_EDGE('E2920',*,*,#224,.F.);
#424=ORIENTED_EDGE('E2920',*,*,#402,.F.);
#425=CARTESIAN_POINT('',(1053.0081050448,864.75940633405,1038.));
#426=DIRECTION('',(0.,-2.8421709430405E-14,1.));
#427=DIRECTION('',(-1.,8.5770095465885E-15,8.5770095465885E-15));
#428=AXIS2_PLACEMENT_3D('',#425,#427,#426);
#429=CIRCLE('',#428,7.9999999999999);
#430=EDGE_CURVE('',#391,#416,#429,.T.);
#431=ORIENTED_EDGE('E2921',*,*,#430,.T.);
#432=EDGE_LOOP('',(#422,#423,#424,#431));
#433=FACE_OUTER_BOUND('',#432,.T.);
#434=ADVANCED_FACE('F1049',(#433),#414,.T.);
#435=CARTESIAN_POINT('',(1013.0081050448,832.75940633405,1030.));
#436=DIRECTION('',(1.,0.,0.));
#437=DIRECTION('',(0.,0.,-1.));
#438=AXIS2_PLACEMENT_3D('',#435,#437,#436);
#439=PLANE('',#438);
#440=ORIENTED_EDGE('',*,*,#49,.F.);
#441=ORIENTED_EDGE('',*,*,#230,.F.);
#442=ORIENTED_EDGE('',*,*,#421,.F.);
#443=CARTESIAN_POINT('',(1053.0081050448,864.75940633405,1030.));
#444=DIRECTION('',(0.,-1.,0.));
#445=VECTOR('',#444,32.);
#446=LINE('',#443,#445);
#447=EDGE_CURVE('',#416,#351,#446,.T.);
#448=ORIENTED_EDGE('E2922',*,*,#447,.T.);
#449=ORIENTED_EDGE('E2922',*,*,#356,.F.);
#450=ORIENTED_EDGE('E2922',*,*,#289,.F.);
#451=EDGE_LOOP('',(#440,#441,#442,#448,#449,#450));
#452=FACE_OUTER_BOUND('',#451,.T.);
#453=ADVANCED_FACE('F1050',(#452),#439,.T.);
#454=CARTESIAN_POINT('',(1053.0081050448,932.75940633405,1037.5));
#455=DIRECTION('',(0.,0.,1.));
#456=DIRECTION('',(1.,0.,-0.));
#457=AXIS2_PLACEMENT_3D('',#454,#456,#455);
#458=PLANE('',#457);
#459=ORIENTED_EDGE('',*,*,#364,.F.);
#460=ORIENTED_EDGE('',*,*,#447,.F.);
#461=ORIENTED_EDGE('',*,*,#430,.F.);
#462=ORIENTED_EDGE('',*,*,#396,.F.);
#463=EDGE_LOOP('',(#459,#460,#461,#462));
#464=FACE_OUTER_BOUND('',#463,.T.);
#465=ORIENTED_EDGE('',*,*,#132,.F.);
#466=ORIENTED_EDGE('',*,*,#139,.F.);
#467=EDGE_LOOP('',(#465,#466));
#468=FACE_BOUND('',#467,.T.);
#469=ORIENTED_EDGE('',*,*,#183,.F.);
#470=ORIENTED_EDGE('',*,*,#190,.F.);
#471=EDGE_LOOP('',(#469,#470));
#472=FACE_BOUND('',#471,.T.);
#473=ADVANCED_FACE('F1051',(#464,#468,#472),#458,.T.);
#474=CLOSED_SHELL('',(#100,#151,#202,#242,#277,#309,#344,#383,#409,#434,#453,#473));
#475=COLOUR_RGB('',0.745098,0.901961,0.960784);
#476=FILL_AREA_STYLE_COLOUR('',#475);
#477=FILL_AREA_STYLE('',(#476));
#478=SURFACE_STYLE_FILL_AREA(#477);
#479=SURFACE_SIDE_STYLE('',(#478));
#480=SURFACE_STYLE_USAGE(.BOTH.,#479);
#481=PRESENTATION_STYLE_ASSIGNMENT((#480));
#482=OVER_RIDING_STYLED_ITEM('',(#481),#100,#474);
#483=OVER_RIDING_STYLED_ITEM('',(#481),#151,#474);
#484=OVER_RIDING_STYLED_ITEM('',(#481),#202,#474);
#485=OVER_RIDING_STYLED_ITEM('',(#481),#242,#474);
#486=OVER_RIDING_STYLED_ITEM('',(#481),#277,#474);
#487=OVER_RIDING_STYLED_ITEM('',(#481),#309,#474);
#488=OVER_RIDING_STYLED_ITEM('',(#481),#344,#474);
#489=OVER_RIDING_STYLED_ITEM('',(#481),#383,#474);
#490=OVER_RIDING_STYLED_ITEM('',(#481),#409,#474);
#491=OVER_RIDING_STYLED_ITEM('',(#481),#434,#474);
#492=OVER_RIDING_STYLED_ITEM('',(#481),#453,#474);
#493=OVER_RIDING_STYLED_ITEM('',(#481),#473,#474);
#494=MANIFOLD_SOLID_BREP('S6',#474);
#495=ADVANCED_BREP_SHAPE_REPRESENTATION('none',(#494),#5);
#496=SHAPE_REPRESENTATION_RELATIONSHIP('none','generic',#18,#495);
#497=PRESENTATION_LAYER_ASSIGNMENT('Í¼²ã0000','',(#494));
#498=MECHANICAL_DESIGN_GEOMETRIC_PRESENTATION_REPRESENTATION('',(#482,#483,#484,#485,#486,#487,#488,#489,#490,#491,#492,#493),#5);
ENDSEC;
END-ISO-10303-21;
